  0
SECTION
  2
HEADER
  9
$ACADVER
  1
AC1015
  9
$ACADMAINTVER
 70
     6
  9
$DWGCODEPAGE
  3
ANSI_1254
  9
$INSBASE
 10
0.0
 20
0.0
 30
0.0
  9
$EXTMIN
 10
0.0
 20
0.0
 30
0.0
  9
$EXTMAX
 10
279.4
 20
215.9
 30
0.0
  9
$LIMMIN
 10
0.0
 20
0.0
  9
$LIMMAX
 10
279.4
 20
215.9
  9
$ORTHOMODE
 70
     0
  9
$REGENMODE
 70
     1
  9
$FILLMODE
 70
     1
  9
$QTEXTMODE
 70
     0
  9
$MIRRTEXT
 70
     1
  9
$LTSCALE
 40
1.0
  9
$ATTMODE
 70
     1
  9
$TEXTSIZE
 40
3.5
  9
$TRACEWID
 40
1.0
  9
$TEXTSTYLE
  7
Standard
  9
$CLAYER
  8
0
  9
$CELTYPE
  6
ByLayer
  9
$CECOLOR
 62
   256
  9
$CELTSCALE
 40
1.0
  9
$DISPSILH
 70
     0
  9
$DIMSCALE
 40
1.0
  9
$DIMASZ
 40
3.5
  9
$DIMEXO
 40
1.0
  9
$DIMDLI
 40
3.75
  9
$DIMRND
 40
0.0
  9
$DIMDLE
 40
0.0
  9
$DIMEXE
 40
1.0
  9
$DIMTP
 40
0.0
  9
$DIMTM
 40
0.0
  9
$DIMTXT
 40
3.5
  9
$DIMCEN
 40
2.5
  9
$DIMTSZ
 40
0.0
  9
$DIMTOL
 70
     0
  9
$DIMLIM
 70
     0
  9
$DIMTIH
 70
     1
  9
$DIMTOH
 70
     1
  9
$DIMSE1
 70
     0
  9
$DIMSE2
 70
     0
  9
$DIMTAD
 70
     1
  9
$DIMZIN
 70
     0
  9
$DIMBLK
  1

  9
$DIMASO
 70
     1
  9
$DIMSHO
 70
     1
  9
$DIMPOST
  1

  9
$DIMAPOST
  1

  9
$DIMALT
 70
     0
  9
$DIMALTD
 70
     3
  9
$DIMALTF
 40
0.0393700787
  9
$DIMLFAC
 40
1.0
  9
$DIMTOFL
 70
     1
  9
$DIMTVP
 40
0.0
  9
$DIMTIX
 70
     0
  9
$DIMSOXD
 70
     0
  9
$DIMSAH
 70
     0
  9
$DIMBLK1
  1

  9
$DIMBLK2
  1

  9
$DIMSTYLE
  2
ISO-25
  9
$DIMCLRD
 70
     0
  9
$DIMCLRE
 70
     0
  9
$DIMCLRT
 70
     0
  9
$DIMTFAC
 40
1.0
  9
$DIMGAP
 40
1.524
  9
$DIMJUST
 70
     0
  9
$DIMSD1
 70
     0
  9
$DIMSD2
 70
     0
  9
$DIMTOLJ
 70
     0
  9
$DIMTZIN
 70
     0
  9
$DIMALTZ
 70
     0
  9
$DIMALTTZ
 70
     0
  9
$DIMUPT
 70
     0
  9
$DIMDEC
 70
     2
  9
$DIMTDEC
 70
     2
  9
$DIMALTU
 70
     2
  9
$DIMALTTD
 70
     3
  9
$DIMTXSTY
  7
Standard
  9
$DIMAUNIT
 70
     0
  9
$DIMADEC
 70
     2
  9
$DIMALTRND
 40
0.0
  9
$DIMAZIN
 70
     0
  9
$DIMDSEP
 70
    44
  9
$DIMATFIT
 70
     3
  9
$DIMFRAC
 70
     0
  9
$DIMLDRBLK
  1

  9
$DIMLUNIT
 70
     2
  9
$DIMLWD
 70
    -2
  9
$DIMLWE
 70
    -2
  9
$DIMTMOVE
 70
     0
  9
$LUNITS
 70
     2
  9
$LUPREC
 70
     2
  9
$SKETCHINC
 40
1.0
  9
$FILLETRAD
 40
10.0
  9
$AUNITS
 70
     0
  9
$AUPREC
 70
     2
  9
$MENU
  1
.
  9
$ELEVATION
 40
0.0
  9
$PELEVATION
 40
0.0
  9
$THICKNESS
 40
0.0
  9
$LIMCHECK
 70
     0
  9
$CHAMFERA
 40
0.0
  9
$CHAMFERB
 40
0.0
  9
$CHAMFERC
 40
0.0
  9
$CHAMFERD
 40
0.0
  9
$SKPOLY
 70
     0
  9
$TDCREATE
 40
2458985.638564942
  9
$TDUCREATE
 40
2458985.513564942
  9
$TDUPDATE
 40
2458985.638565232
  9
$TDUUPDATE
 40
2458985.513565232
  9
$TDINDWG
 40
0.0000000116
  9
$TDUSRTIMER
 40
0.0000000116
  9
$USRTIMER
 70
     1
  9
$ANGBASE
 50
0.0
  9
$ANGDIR
 70
     0
  9
$PDMODE
 70
     0
  9
$PDSIZE
 40
-1.0
  9
$PLINEWID
 40
0.0
  9
$SPLFRAME
 70
     0
  9
$SPLINETYPE
 70
     6
  9
$SPLINESEGS
 70
     8
  9
$HANDSEED
  5
C3
  9
$SURFTAB1
 70
     6
  9
$SURFTAB2
 70
     6
  9
$SURFTYPE
 70
     6
  9
$SURFU
 70
     6
  9
$SURFV
 70
     6
  9
$UCSBASE
  2

  9
$UCSNAME
  2

  9
$UCSORG
 10
0.0
 20
0.0
 30
0.0
  9
$UCSXDIR
 10
1.0
 20
0.0
 30
0.0
  9
$UCSYDIR
 10
0.0
 20
1.0
 30
0.0
  9
$UCSORTHOREF
  2

  9
$UCSORTHOVIEW
 70
     0
  9
$UCSORGTOP
 10
0.0
 20
0.0
 30
0.0
  9
$UCSORGBOTTOM
 10
0.0
 20
0.0
 30
0.0
  9
$UCSORGLEFT
 10
0.0
 20
0.0
 30
0.0
  9
$UCSORGRIGHT
 10
0.0
 20
0.0
 30
0.0
  9
$UCSORGFRONT
 10
0.0
 20
0.0
 30
0.0
  9
$UCSORGBACK
 10
0.0
 20
0.0
 30
0.0
  9
$PUCSBASE
  2

  9
$PUCSNAME
  2

  9
$PUCSORG
 10
0.0
 20
0.0
 30
0.0
  9
$PUCSXDIR
 10
1.0
 20
0.0
 30
0.0
  9
$PUCSYDIR
 10
0.0
 20
1.0
 30
0.0
  9
$PUCSORTHOREF
  2

  9
$PUCSORTHOVIEW
 70
     0
  9
$PUCSORGTOP
 10
0.0
 20
0.0
 30
0.0
  9
$PUCSORGBOTTOM
 10
0.0
 20
0.0
 30
0.0
  9
$PUCSORGLEFT
 10
0.0
 20
0.0
 30
0.0
  9
$PUCSORGRIGHT
 10
0.0
 20
0.0
 30
0.0
  9
$PUCSORGFRONT
 10
0.0
 20
0.0
 30
0.0
  9
$PUCSORGBACK
 10
0.0
 20
0.0
 30
0.0
  9
$USERI1
 70
     0
  9
$USERI2
 70
     0
  9
$USERI3
 70
     0
  9
$USERI4
 70
     0
  9
$USERI5
 70
     0
  9
$USERR1
 40
0.0
  9
$USERR2
 40
0.0
  9
$USERR3
 40
0.0
  9
$USERR4
 40
0.0
  9
$USERR5
 40
0.0
  9
$WORLDVIEW
 70
     1
  9
$SHADEDGE
 70
     3
  9
$SHADEDIF
 70
    70
  9
$TILEMODE
 70
     1
  9
$MAXACTVP
 70
    64
  9
$PINSBASE
 10
0.0
 20
0.0
 30
0.0
  9
$PLIMCHECK
 70
     0
  9
$PEXTMIN
 10
1.0000000000E+20
 20
1.0000000000E+20
 30
1.0000000000E+20
  9
$PEXTMAX
 10
-1.0000000000E+20
 20
-1.0000000000E+20
 30
-1.0000000000E+20
  9
$PLIMMIN
 10
0.0
 20
0.0
  9
$PLIMMAX
 10
420.0
 20
297.0
  9
$UNITMODE
 70
     0
  9
$VISRETAIN
 70
     1
  9
$PLINEGEN
 70
     0
  9
$PSLTSCALE
 70
     1
  9
$TREEDEPTH
 70
  3020
  9
$CMLSTYLE
  2
Standard
  9
$CMLJUST
 70
     0
  9
$CMLSCALE
 40
20.0
  9
$PROXYGRAPHICS
 70
     1
  9
$MEASUREMENT
 70
     1
  9
$CELWEIGHT
370
    -1
  9
$ENDCAPS
280
     0
  9
$JOINSTYLE
280
     0
  9
$LWDISPLAY
290
     1
  9
$INSUNITS
 70
     4
  9
$HYPERLINKBASE
  1

  9
$STYLESHEET
  1

  9
$XEDIT
290
     1
  9
$CEPSNTYPE
380
     0
  9
$PSTYLEMODE
290
     1
  9
$FINGERPRINTGUID
  2
{96e81150-397f-4a0f-991b-c2d02695a4bd}
  9
$VERSIONGUID
  2
{FAEB1C32-E019-11D5-929B-00C0DF256EC4}
  9
$EXTNAMES
290
     1
  9
$PSVPSCALE
 40
0.0
  9
$OLESTARTUP
290
     0
  0
ENDSEC
  0
SECTION
  2
CLASSES
  0
CLASS
  1
ACDBDICTIONARYWDFLT
  2
AcDbDictionaryWithDefault
  3
ObjectDBX Classes
 90
        0
280
     0
281
     0
  0
CLASS
  1
VISUALSTYLE
  2
AcDbVisualStyle
  3
ObjectDBX Classes
 90
     4095
280
     0
281
     0
  0
CLASS
  1
MATERIAL
  2
AcDbMaterial
  3
ObjectDBX Classes
 90
     1153
280
     0
281
     0
  0
CLASS
  1
SCALE
  2
AcDbScale
  3
ObjectDBX Classes
 90
     1153
280
     0
281
     0
  0
CLASS
  1
TABLESTYLE
  2
AcDbTableStyle
  3
ObjectDBX Classes
 90
     4095
280
     0
281
     0
  0
CLASS
  1
MLEADERSTYLE
  2
AcDbMLeaderStyle
  3
ACDB_MLEADERSTYLE_CLASS
 90
     4095
280
     0
281
     0
  0
CLASS
  1
SUN
  2
AcDbSun
  3
SCENEOE
 90
     1153
280
     0
281
     0
  0
CLASS
  1
ACDBPLACEHOLDER
  2
AcDbPlaceHolder
  3
ObjectDBX Classes
 90
        0
280
     0
281
     0
  0
CLASS
  1
LAYOUT
  2
AcDbLayout
  3
ObjectDBX Classes
 90
        0
280
     0
281
     0
  0
ENDSEC
  0
SECTION
  2
TABLES
  0
TABLE
  2
VPORT
  5
8
330
0
100
AcDbSymbolTable
 70
     1
  0
VPORT
  5
29
330
8
100
AcDbSymbolTableRecord
100
AcDbViewportTableRecord
  2
*Active
 70
     0
 10
0.0
 20
0.0
 11
1.0
 21
1.0
 12
139.7
 22
107.95
 13
0.0
 23
0.0
 14
10.0
 24
10.0
 15
10.0
 25
10.0
 16
0.0
 26
0.0
 36
1.0
 17
0.0
 27
0.0
 37
0.0
 40
215.9
 41
1.2941176471
 42
50.0
 43
0.0
 44
0.0
 50
0.0
 51
0.0
 71
     0
 72
  2000
 73
     1
 74
     3
 75
     0
 76
     0
 77
     0
 78
     0
281
     0
 65
     1
110
0.0
120
0.0
130
0.0
111
1.0
121
0.0
131
0.0
112
0.0
122
1.0
132
0.0
 79
     0
146
0.0
  0
ENDTAB
  0
TABLE
  2
LTYPE
  5
5
330
0
100
AcDbSymbolTable
 70
     6
  0
LTYPE
  5
14
330
5
100
AcDbSymbolTableRecord
100
AcDbLinetypeTableRecord
  2
ByBlock
 70
     0
  3

 72
    65
 73
     0
 40
0.0
  0
LTYPE
  5
15
330
5
100
AcDbSymbolTableRecord
100
AcDbLinetypeTableRecord
  2
ByLayer
 70
     0
  3

 72
    65
 73
     0
 40
0.0
  0
LTYPE
  5
16
330
5
100
AcDbSymbolTableRecord
100
AcDbLinetypeTableRecord
  2
Continuous
 70
     0
  3
Solid line
 72
    65
 73
     0
 40
0.0
  0
LTYPE
  5
6E
330
5
100
AcDbSymbolTableRecord
100
AcDbLinetypeTableRecord
  2
HIDDEN
 70
     0
  3
Hidden __ __ __ __ __ __ __ __ __ __ __ __ __ __
 72
    65
 73
     2
 40
1.905
 49
1.27
 74
     0
 49
-0.635
 74
     0
  0
LTYPE
  5
6F
330
5
100
AcDbSymbolTableRecord
100
AcDbLinetypeTableRecord
  2
PHANTOM
 70
     0
  3
Phantom ______  __  __  ______  __  __  ______
 72
    65
 73
     6
 40
12.7
 49
6.35
 74
     0
 49
-1.27
 74
     0
 49
1.27
 74
     0
 49
-1.27
 74
     0
 49
1.27
 74
     0
 49
-1.27
 74
     0
  0
LTYPE
  5
70
330
5
100
AcDbSymbolTableRecord
100
AcDbLinetypeTableRecord
  2
CENTER
 70
     0
  3
Center ____ _ ____ _ ____ _ ____ _ ____ _ ____
 72
    65
 73
     4
 40
10.16
 49
6.35
 74
     0
 49
-1.27
 74
     0
 49
1.27
 74
     0
 49
-1.27
 74
     0
  0
LTYPE
  5
71
330
5
100
AcDbSymbolTableRecord
100
AcDbLinetypeTableRecord
  2
CENTERX2
 70
     0
  3
Center (2x) ________  __  ________  __  _____
 72
    65
 73
     4
 40
20.32
 49
12.7
 74
     0
 49
-2.54
 74
     0
 49
2.54
 74
     0
 49
-2.54
 74
     0
  0
LTYPE
  5
72
330
5
100
AcDbSymbolTableRecord
100
AcDbLinetypeTableRecord
  2
DOT2
 70
     0
  3
Dot (.5x) ........................................
 72
    65
 73
     2
 40
0.635
 49
0.0
 74
     0
 49
-0.635
 74
     0
  0
ENDTAB
  0
TABLE
  2
LAYER
  5
2
330
0
100
AcDbSymbolTable
 70
    17
  0
LAYER
  5
10
330
2
100
AcDbSymbolTableRecord
100
AcDbLayerTableRecord
  2
0
 70
     0
 62
     7
  6
Continuous
370
    -3
390
F
  0
LAYER
  5
73
330
2
100
AcDbSymbolTableRecord
100
AcDbLayerTableRecord
  2
FORMAT
 70
     0
 62
     7
  6
Continuous
370
    -3
390
F
  0
LAYER
  5
74
330
2
100
AcDbSymbolTableRecord
100
AcDbLayerTableRecord
  2
YARDIMCI_GEOMETRI
 70
     0
 62
    -6
  6
Continuous
290
     0
370
    -3
390
F
  0
LAYER
  5
75
330
2
100
AcDbSymbolTableRecord
100
AcDbLayerTableRecord
  2
SAYFA_CERCEVESI
 70
     0
 62
     7
  6
Continuous
370
    25
390
F
  0
LAYER
  5
76
330
2
100
AcDbSymbolTableRecord
100
AcDbLayerTableRecord
  2
ANTET
 70
     0
 62
     7
  6
Continuous
370
    -3
390
F
  0
LAYER
  5
77
330
2
100
AcDbSymbolTableRecord
100
AcDbLayerTableRecord
  2
OLCU
 70
     0
 62
   150
  6
Continuous
370
    -3
390
F
  0
LAYER
  5
78
330
2
100
AcDbSymbolTableRecord
100
AcDbLayerTableRecord
  2
METIN
 70
     0
 62
    96
  6
Continuous
370
    -3
390
F
  0
LAYER
  5
79
330
2
100
AcDbSymbolTableRecord
100
AcDbLayerTableRecord
  2
BALON
 70
     0
 62
     5
  6
Continuous
370
    -3
390
F
  0
LAYER
  5
7A
330
2
100
AcDbSymbolTableRecord
100
AcDbLayerTableRecord
  2
VURGU
 70
     0
 62
     7
  6
Continuous
370
    -3
390
F
  0
LAYER
  5
7B
330
2
100
AcDbSymbolTableRecord
100
AcDbLayerTableRecord
  2
SILIK
 70
     0
 62
     7
  6
Continuous
370
    -3
390
F
  0
LAYER
  5
7C
330
2
100
AcDbSymbolTableRecord
100
AcDbLayerTableRecord
  2
MODEL
 70
     0
 62
     7
  6
Continuous
370
    -3
390
F
  0
LAYER
  5
7D
330
2
100
AcDbSymbolTableRecord
100
AcDbLayerTableRecord
  2
DETAYLANDıRMA
 70
     0
 62
   190
  6
Continuous
370
    -3
390
F
  0
LAYER
  5
7E
330
2
100
AcDbSymbolTableRecord
100
AcDbLayerTableRecord
  2
TOLERANS
 70
     0
 62
   230
  6
Continuous
370
    -3
390
F
  0
LAYER
  5
7F
330
2
100
AcDbSymbolTableRecord
100
AcDbLayerTableRecord
  2
MERKEZ_CIZGILERI
 70
     0
 62
    30
  6
Continuous
370
    -3
390
F
  0
LAYER
  5
80
330
2
100
AcDbSymbolTableRecord
100
AcDbLayerTableRecord
  2
KESIT-DETAY_CIZGILERI
 70
     0
 62
     7
  6
Continuous
370
    -3
390
F
  0
LAYER
  5
81
330
2
100
AcDbSymbolTableRecord
100
AcDbLayerTableRecord
  2
\U+041E\U+0421\U+0415\U+0412\U+042B\U+0415
 70
     0
 62
     7
  6
Continuous
370
    -3
390
F
  0
LAYER
  5
82
330
2
100
AcDbSymbolTableRecord
100
AcDbLayerTableRecord
  2
\U+0412\U+041E\U+0414\U+042F\U+041D\U+042B\U+0415_\U+0417\U+041D\U+0410\U+041A\U+0418
 70
     0
 62
    11
  6
Continuous
370
    -3
390
F
  0
ENDTAB
  0
TABLE
  2
STYLE
  5
3
330
0
100
AcDbSymbolTable
 70
     1
  0
STYLE
  5
11
330
3
100
AcDbSymbolTableRecord
100
AcDbTextStyleTableRecord
  2
Standard
 70
     0
 40
0.0
 41
1.0
 50
0.0
 71
     0
 42
3.5
  3
txt
  4

  0
ENDTAB
  0
TABLE
  2
VIEW
  5
6
330
0
100
AcDbSymbolTable
 70
     0
  0
ENDTAB
  0
TABLE
  2
UCS
  5
7
330
0
100
AcDbSymbolTable
 70
     0
  0
ENDTAB
  0
TABLE
  2
APPID
  5
9
330
0
100
AcDbSymbolTable
 70
     1
  0
APPID
  5
12
330
9
100
AcDbSymbolTableRecord
100
AcDbRegAppTableRecord
  2
ACAD
 70
     0
  0
ENDTAB
  0
TABLE
  2
DIMSTYLE
  5
A
330
0
100
AcDbSymbolTable
 70
     1
100
AcDbDimStyleTable
  0
DIMSTYLE
105
27
330
A
100
AcDbSymbolTableRecord
100
AcDbDimStyleTableRecord
  2
ISO-25
 70
     0
 41
2.5
 42
0.625
 43
3.75
 44
1.25
 73
     0
 74
     0
 77
     1
 78
     8
140
2.5
141
2.5
143
0.0393700787
147
0.625
171
     3
172
     1
178
     0
271
     2
272
     2
274
     3
278
    44
283
     0
284
     8
340
11
  0
ENDTAB
  0
TABLE
  2
BLOCK_RECORD
  5
1
330
0
100
AcDbSymbolTable
 70
     1
  0
BLOCK_RECORD
  5
1F
330
1
100
AcDbSymbolTableRecord
100
AcDbBlockTableRecord
  2
*Model_Space
340
22
  0
BLOCK_RECORD
  5
1B
330
1
100
AcDbSymbolTableRecord
100
AcDbBlockTableRecord
  2
*Paper_Space
340
1E
  0
BLOCK_RECORD
  5
23
330
1
100
AcDbSymbolTableRecord
100
AcDbBlockTableRecord
  2
*Paper_Space0
340
26
  0
ENDTAB
  0
ENDSEC
  0
SECTION
  2
BLOCKS
  0
BLOCK
  5
20
330
1F
100
AcDbEntity
  8
0
100
AcDbBlockBegin
  2
*Model_Space
 70
     0
 10
0.0
 20
0.0
 30
0.0
  3
*Model_Space
  1

  0
ENDBLK
  5
21
330
1F
100
AcDbEntity
  8
0
100
AcDbBlockEnd
  0
BLOCK
  5
1C
330
1B
100
AcDbEntity
 67
     1
  8
0
100
AcDbBlockBegin
  2
*Paper_Space
 70
     0
 10
0.0
 20
0.0
 30
0.0
  3
*Paper_Space
  1

  0
ENDBLK
  5
1D
330
1B
100
AcDbEntity
 67
     1
  8
0
100
AcDbBlockEnd
  0
BLOCK
  5
24
330
23
100
AcDbEntity
  8
0
100
AcDbBlockBegin
  2
*Paper_Space0
 70
     0
 10
0.0
 20
0.0
 30
0.0
  3
*Paper_Space0
  1

  0
ENDBLK
  5
25
330
23
100
AcDbEntity
  8
0
100
AcDbBlockEnd
  0
ENDSEC
  0
SECTION
  2
ENTITIES
  0
CIRCLE
  5
83
330
1F
100
AcDbEntity
  8
0
  6
Continuous
 62
     7
370
    25
100
AcDbCircle
 10
154.2145675497
 20
110.9846551917
 30
0.0
 40
280.0000000000001
  0
CIRCLE
  5
84
330
1F
100
AcDbEntity
  8
0
  6
Continuous
 62
     7
370
    25
100
AcDbCircle
 10
154.2145675497
 20
110.9846551917
 30
0.0
 40
229.2
  0
CIRCLE
  5
85
330
1F
100
AcDbEntity
  8
0
  6
Continuous
 62
     7
370
    25
100
AcDbCircle
 10
154.2145675497
 20
110.9846551917
 30
0.0
 40
290.0
  0
CIRCLE
  5
86
330
1F
100
AcDbEntity
  8
0
  6
Continuous
 62
     7
370
    25
100
AcDbCircle
 10
154.2145675497
 20
110.9846551917
 30
0.0
 40
327.0
  0
LINE
  5
87
330
1F
100
AcDbEntity
  8
0
  6
Continuous
 62
     7
370
    25
100
AcDbLine
 10
481.2145675497
 20
685.685019524
 30
0.0
 11
481.2145675497
 21
765.685019524
 31
0.0
  0
LINE
  5
88
330
1F
100
AcDbEntity
  8
0
  6
Continuous
 62
     7
370
    25
100
AcDbLine
 10
-172.7854324503
 20
765.685019524
 30
0.0
 11
-172.7854324503
 21
685.685019524
 31
0.0
  0
LINE
  5
89
330
1F
100
AcDbEntity
  8
0
  6
Continuous
 62
     7
370
    25
100
AcDbLine
 10
444.2145675497
 20
765.685019524
 30
0.0
 11
434.2145675497
 21
817.685019524
 31
0.0
  0
LINE
  5
8A
330
1F
100
AcDbEntity
  8
0
  6
Continuous
 62
     7
370
    25
100
AcDbLine
 10
-125.7854324503
 20
817.685019524
 30
0.0
 11
-135.7854324503
 21
765.685019524
 31
0.0
  0
LINE
  5
8B
330
1F
100
AcDbEntity
  8
0
  6
Continuous
 62
     7
370
    25
100
AcDbLine
 10
434.2145675497
 20
817.685019524
 30
0.0
 11
434.2145675497
 21
865.685019524
 31
0.0
  0
LINE
  5
8C
330
1F
100
AcDbEntity
  8
0
  6
Continuous
 62
     7
370
    25
100
AcDbLine
 10
-125.7854324503
 20
865.685019524
 30
0.0
 11
-125.7854324503
 21
817.685019524
 31
0.0
  0
LINE
  5
8D
330
1F
100
AcDbEntity
  8
0
  6
Continuous
 62
     7
370
    25
100
AcDbLine
 10
481.2145675497
 20
685.685019524
 30
0.0
 11
-172.7854324503
 21
685.685019524
 31
0.0
  0
LINE
  5
8E
330
1F
100
AcDbEntity
  8
0
  6
Continuous
 62
     7
370
    25
100
AcDbLine
 10
481.2145675497
 20
765.685019524
 30
0.0
 11
-172.7854324503
 21
765.685019524
 31
0.0
  0
LINE
  5
8F
330
1F
100
AcDbEntity
  8
0
  6
Continuous
 62
     7
370
    25
100
AcDbLine
 10
434.2145675497
 20
817.685019524
 30
0.0
 11
-125.7854324503
 21
817.685019524
 31
0.0
  0
LINE
  5
90
330
1F
100
AcDbEntity
  8
0
  6
Continuous
 62
     7
370
    25
100
AcDbLine
 10
434.2145675497
 20
865.685019524
 30
0.0
 11
-125.7854324503
 21
865.685019524
 31
0.0
  0
LINE
  5
91
330
1F
100
AcDbEntity
  8
0
  6
Continuous
 62
     7
370
    25
100
AcDbLine
 10
-468.4075141404
 20
437.9846551917
 30
0.0
 11
-548.4075141404
 21
437.9846551917
 31
0.0
  0
LINE
  5
92
330
1F
100
AcDbEntity
  8
0
  6
Continuous
 62
     7
370
    25
100
AcDbLine
 10
-548.4075141404
 20
-216.0153448083
 30
0.0
 11
-468.4075141404
 21
-216.0153448083
 31
0.0
  0
LINE
  5
93
330
1F
100
AcDbEntity
  8
0
  6
Continuous
 62
     7
370
    25
100
AcDbLine
 10
-548.4075141404
 20
400.9846551917
 30
0.0
 11
-600.4075141404
 21
390.9846551917
 31
0.0
  0
LINE
  5
94
330
1F
100
AcDbEntity
  8
0
  6
Continuous
 62
     7
370
    25
100
AcDbLine
 10
-600.4075141404
 20
-169.0153448083
 30
0.0
 11
-548.4075141404
 21
-179.0153448083
 31
0.0
  0
LINE
  5
95
330
1F
100
AcDbEntity
  8
0
  6
Continuous
 62
     7
370
    25
100
AcDbLine
 10
-600.4075141404
 20
390.9846551917
 30
0.0
 11
-648.4075141404
 21
390.9846551917
 31
0.0
  0
LINE
  5
96
330
1F
100
AcDbEntity
  8
0
  6
Continuous
 62
     7
370
    25
100
AcDbLine
 10
-648.4075141404
 20
-169.0153448083
 30
0.0
 11
-600.4075141404
 21
-169.0153448083
 31
0.0
  0
LINE
  5
97
330
1F
100
AcDbEntity
  8
0
  6
Continuous
 62
     7
370
    25
100
AcDbLine
 10
-468.4075141404
 20
437.9846551917
 30
0.0
 11
-468.4075141404
 21
-216.0153448083
 31
0.0
  0
LINE
  5
98
330
1F
100
AcDbEntity
  8
0
  6
Continuous
 62
     7
370
    25
100
AcDbLine
 10
-548.4075141404
 20
437.9846551917
 30
0.0
 11
-548.4075141404
 21
-216.0153448083
 31
0.0
  0
LINE
  5
99
330
1F
100
AcDbEntity
  8
0
  6
Continuous
 62
     7
370
    25
100
AcDbLine
 10
-600.4075141404
 20
390.9846551917
 30
0.0
 11
-600.4075141404
 21
-169.0153448083
 31
0.0
  0
LINE
  5
9A
330
1F
100
AcDbEntity
  8
0
  6
Continuous
 62
     7
370
    25
100
AcDbLine
 10
-648.4075141404
 20
390.9846551917
 30
0.0
 11
-648.4075141404
 21
-169.0153448083
 31
0.0
  0
LINE
  5
9B
330
1F
100
AcDbEntity
  8
0
  6
Continuous
 62
     7
370
    25
100
AcDbLine
 10
-172.7854324503
 20
-642.4892056641
 30
0.0
 11
-172.7854324503
 21
-722.4892056641
 31
0.0
  0
LINE
  5
9C
330
1F
100
AcDbEntity
  8
0
  6
Continuous
 62
     7
370
    25
100
AcDbLine
 10
481.2145675497
 20
-722.4892056641
 30
0.0
 11
481.2145675497
 21
-642.4892056641
 31
0.0
  0
LINE
  5
9D
330
1F
100
AcDbEntity
  8
0
  6
Continuous
 62
     7
370
    25
100
AcDbLine
 10
-135.7854324503
 20
-722.4892056641
 30
0.0
 11
-125.7854324503
 21
-774.4892056641
 31
0.0
  0
LINE
  5
9E
330
1F
100
AcDbEntity
  8
0
  6
Continuous
 62
     7
370
    25
100
AcDbLine
 10
434.2145675497
 20
-774.4892056641
 30
0.0
 11
444.2145675497
 21
-722.4892056641
 31
0.0
  0
LINE
  5
9F
330
1F
100
AcDbEntity
  8
0
  6
Continuous
 62
     7
370
    25
100
AcDbLine
 10
-125.7854324503
 20
-774.4892056641
 30
0.0
 11
-125.7854324503
 21
-822.4892056641
 31
0.0
  0
LINE
  5
A0
330
1F
100
AcDbEntity
  8
0
  6
Continuous
 62
     7
370
    25
100
AcDbLine
 10
434.2145675497
 20
-822.4892056641
 30
0.0
 11
434.2145675497
 21
-774.4892056641
 31
0.0
  0
LINE
  5
A1
330
1F
100
AcDbEntity
  8
0
  6
Continuous
 62
     7
370
    25
100
AcDbLine
 10
-172.7854324503
 20
-642.4892056641
 30
0.0
 11
481.2145675497
 21
-642.4892056641
 31
0.0
  0
LINE
  5
A2
330
1F
100
AcDbEntity
  8
0
  6
Continuous
 62
     7
370
    25
100
AcDbLine
 10
-172.7854324503
 20
-722.4892056641
 30
0.0
 11
481.2145675497
 21
-722.4892056641
 31
0.0
  0
LINE
  5
A3
330
1F
100
AcDbEntity
  8
0
  6
Continuous
 62
     7
370
    25
100
AcDbLine
 10
-125.7854324503
 20
-774.4892056641
 30
0.0
 11
434.2145675497
 21
-774.4892056641
 31
0.0
  0
LINE
  5
A4
330
1F
100
AcDbEntity
  8
0
  6
Continuous
 62
     7
370
    25
100
AcDbLine
 10
-125.7854324503
 20
-822.4892056641
 30
0.0
 11
434.2145675497
 21
-822.4892056641
 31
0.0
  0
LINE
  5
A5
330
1F
100
AcDbEntity
  8
0
  6
Continuous
 62
     7
370
    25
100
AcDbLine
 10
837.1080588562
 20
-216.0153448083
 30
0.0
 11
917.1080588562
 21
-216.0153448083
 31
0.0
  0
LINE
  5
A6
330
1F
100
AcDbEntity
  8
0
  6
Continuous
 62
     7
370
    25
100
AcDbLine
 10
917.1080588562
 20
437.9846551917
 30
0.0
 11
837.1080588562
 21
437.9846551917
 31
0.0
  0
LINE
  5
A7
330
1F
100
AcDbEntity
  8
0
  6
Continuous
 62
     7
370
    25
100
AcDbLine
 10
917.1080588562
 20
-179.0153448083
 30
0.0
 11
969.1080588562
 21
-169.0153448083
 31
0.0
  0
LINE
  5
A8
330
1F
100
AcDbEntity
  8
0
  6
Continuous
 62
     7
370
    25
100
AcDbLine
 10
969.1080588562
 20
390.9846551917
 30
0.0
 11
917.1080588562
 21
400.9846551917
 31
0.0
  0
LINE
  5
A9
330
1F
100
AcDbEntity
  8
0
  6
Continuous
 62
     7
370
    25
100
AcDbLine
 10
969.1080588562
 20
-169.0153448083
 30
0.0
 11
1017.1080588562
 21
-169.0153448083
 31
0.0
  0
LINE
  5
AA
330
1F
100
AcDbEntity
  8
0
  6
Continuous
 62
     7
370
    25
100
AcDbLine
 10
1017.1080588562
 20
390.9846551917
 30
0.0
 11
969.1080588562
 21
390.9846551917
 31
0.0
  0
LINE
  5
AB
330
1F
100
AcDbEntity
  8
0
  6
Continuous
 62
     7
370
    25
100
AcDbLine
 10
837.1080588562
 20
110.9846551917
 30
0.0
 11
837.1080588562
 21
437.9846551917
 31
0.0
  0
LINE
  5
AC
330
1F
100
AcDbEntity
  8
0
  6
Continuous
 62
     7
370
    25
100
AcDbLine
 10
837.1080588562
 20
-216.0153448083
 30
0.0
 11
837.1080588562
 21
110.9846551917
 31
0.0
  0
LINE
  5
AD
330
1F
100
AcDbEntity
  8
0
  6
Continuous
 62
     7
370
    25
100
AcDbLine
 10
917.1080588562
 20
110.9846551917
 30
0.0
 11
917.1080588562
 21
437.9846551917
 31
0.0
  0
LINE
  5
AE
330
1F
100
AcDbEntity
  8
0
  6
Continuous
 62
     7
370
    25
100
AcDbLine
 10
917.1080588562
 20
-216.0153448083
 30
0.0
 11
917.1080588562
 21
110.9846551917
 31
0.0
  0
LINE
  5
AF
330
1F
100
AcDbEntity
  8
0
  6
Continuous
 62
     7
370
    25
100
AcDbLine
 10
969.1080588562
 20
110.9846551917
 30
0.0
 11
969.1080588562
 21
390.9846551917
 31
0.0
  0
LINE
  5
B0
330
1F
100
AcDbEntity
  8
0
  6
Continuous
 62
     7
370
    25
100
AcDbLine
 10
969.1080588562
 20
-169.0153448083
 30
0.0
 11
969.1080588562
 21
110.9846551917
 31
0.0
  0
LINE
  5
B1
330
1F
100
AcDbEntity
  8
0
  6
Continuous
 62
     7
370
    25
100
AcDbLine
 10
1017.1080588562
 20
110.9846551917
 30
0.0
 11
1017.1080588562
 21
390.9846551917
 31
0.0
  0
LINE
  5
B2
330
1F
100
AcDbEntity
  8
0
  6
Continuous
 62
     7
370
    25
100
AcDbLine
 10
1017.1080588562
 20
-169.0153448083
 30
0.0
 11
1017.1080588562
 21
110.9846551917
 31
0.0
  0
LINE
  5
B3
330
1F
100
AcDbEntity
  8
0
  6
Continuous
 62
     7
370
    25
100
AcDbLine
 10
1104.8851161103
 20
-349.8144178268
 30
0.0
 11
1070.9439906133
 21
-330.2206231431
 31
0.0
  0
LINE
  5
B4
330
1F
100
AcDbEntity
  8
0
  6
Continuous
 62
     7
370
    25
100
AcDbLine
 10
790.9667454752
 20
-815.2079860763
 30
0.0
 11
824.9078709722
 21
-834.80178076
 31
0.0
  0
LINE
  5
B5
330
1F
100
AcDbEntity
  8
0
  6
Continuous
 62
     7
370
    25
100
AcDbLine
 10
1221.7213014438
 20
-362.9930566753
 30
0.0
 11
1165.1527589489
 21
-330.3367322023
 31
0.0
  0
LINE
  5
B6
330
1F
100
AcDbEntity
  8
0
  6
Continuous
 62
     7
370
    25
100
AcDbLine
 10
838.1793333769
 20
-896.7326881993
 30
0.0
 11
894.7478758718
 21
-929.3890126722
 31
0.0
  0
LINE
  5
B7
330
1F
100
AcDbEntity
  8
0
  6
Continuous
 62
     7
370
    25
100
AcDbLine
 10
1125.5866848703
 20
-353.3293542303
 30
0.0
 11
1095.3203947376
 21
-344.2928217089
 31
0.0
  0
LINE
  5
B8
330
1F
100
AcDbEntity
  8
0
  6
Continuous
 62
     7
370
    25
100
AcDbLine
 10
815.3431495995
 20
-829.2801846421
 30
0.0
 11
838.3041969328
 21
-850.9711399868
 31
0.0
  0
LWPOLYLINE
  5
B9
330
1F
100
AcDbEntity
  8
0
  6
Continuous
 62
     7
370
    25
100
AcDbPolyline
 90
       90
 70
   128
 43
0.0
 10
1104.8851161103
 20
-349.8144178268
 10
1107.9678780612
 20
-351.6742108293
 10
1112.734999638
 20
-354.8853307689
 10
1117.3158459611
 20
-358.3956013669
 10
1121.7046452034
 20
-362.2005997123
 10
1125.8958675153
 20
-366.2955315397
 10
1129.8842319925
 20
-370.6752372702
 10
1133.6647133299
 20
-375.3341985118
 10
1137.2325481534
 20
-380.2665450133
 10
1140.5832410215
 20
-385.4660620602
 10
1143.7125700899
 20
-390.9261983055
 10
1146.6165924307
 20
-396.6400740243
 10
1149.2916490007
 20
-402.600489782
 10
1151.7343692513
 20
-408.7999355056
 10
1153.941675376
 20
-415.2305999466
 10
1155.9107861879
 20
-421.8843805228
 10
1157.6392206243
 20
-428.7528935275
 10
1159.1248008724
 20
-435.8274846931
 10
1160.365655114
 20
-443.0992400952
 10
1161.3602198833
 20
-450.5589973841
 10
1162.1072420371
 20
-458.1973573295
 10
1162.605780334
 20
-466.0046956631
 10
1162.8552066199
 20
-473.9711752054
 10
1162.8552066199
 20
-482.0867582602
 10
1162.605780334
 20
-490.3412192624
 10
1162.1072420371
 20
-498.7241576616
 10
1161.3602198833
 20
-507.2250110271
 10
1160.365655114
 20
-515.8330683564
 10
1159.1248008724
 20
-524.5374835708
 10
1157.6392206243
 20
-533.3272891816
 10
1155.9107861879
 20
-542.1914101088
 10
1153.941675376
 20
-551.1186776359
 10
1151.7343692513
 20
-560.0978434821
 10
1149.2916490007
 20
-569.1175939752
 10
1146.6165924307
 20
-578.1665643068
 10
1143.7125700899
 20
-587.2333528515
 10
1140.5832410215
 20
-596.3065355334
 10
1137.2325481534
 20
-605.3746802198
 10
1133.6647133299
 20
-614.4263611259
 10
1129.8842319925
 20
-623.4501732113
 10
1125.8958675153
 20
-632.4347465497
 10
1121.7046452034
 20
-641.3687606557
 10
1117.3158459611
 20
-650.2409587479
 10
1112.734999638
 20
-659.0401619325
 10
1107.9678780612
 20
-667.7552832887
 10
1103.0204877631
 20
-676.3753418381
 10
1097.8990624133
 20
-684.8894763807
 10
1092.6100549639
 20
-693.2869591798
 10
1087.1601295191
 20
-701.5572094787
 10
1081.5561529382
 20
-709.689806833
 10
1075.805186184
 20
-717.6745042393
 10
1069.9144754253
 20
-725.5012410472
 10
1063.8914429073
 20
-733.1601556354
 10
1057.7436775996
 20
-740.6415978369
 10
1051.4789256337
 20
-747.9361410984
 10
1045.1050805437
 20
-755.0345943579
 10
1038.6301733199
 20
-761.9280136249
 10
1032.06236229
 20
-768.6077132501
 10
1025.4099228397
 20
-775.065276869
 10
1018.6812369858
 20
-781.2925680068
 10
1011.8847828151
 20
-787.2817403299
 10
1005.0291238017
 20
-793.0252475322
 10
998.1228980173
 20
-798.5158528439
 10
991.1748072473
 20
-803.7466381492
 10
984.1936060267
 20
-808.7110127034
 10
977.1880906094
 20
-813.4027214368
 10
970.1670878849
 20
-817.8158528368
 10
963.1394442565
 20
-821.9448463954
 10
956.1140144953
 20
-825.784499616
 10
949.0996505825
 20
-829.3299745684
 10
942.1051905568
 20
-832.5768039845
 10
935.139447378
 20
-835.520896887
 10
928.211197823
 20
-838.158543744
 10
921.3291714269
 20
-840.486421143
 10
914.5020394841
 20
-842.5015959783
 10
907.7384041226
 20
-844.2015291471
 10
901.0467874651
 20
-845.5840787479
 10
894.4356208913
 20
-846.64750278
 10
887.9132344146
 20
-847.3904613384
 10
881.4878461862
 20
-847.8120183016
 10
875.1675521403
 20
-847.9116425114
 10
868.9603157934
 20
-847.6892084421
 10
862.8739582103
 20
-847.1449963588
 10
856.9161481493
 20
-846.279691964
 10
851.0943924003
 20
-845.094385534
 10
845.4160263257
 20
-843.5905705446
 10
839.8882046183
 20
-841.7701417898
 10
834.5178922861
 20
-839.6353929945
 10
829.3118558767
 20
-837.1890139237
 10
824.9078709722
 20
-834.80178076
  0
LWPOLYLINE
  5
BA
330
1F
100
AcDbEntity
  8
0
  6
Continuous
 62
     7
370
    25
100
AcDbPolyline
 90
      178
 70
   128
 43
0.0
 10
732.965469312
 20
-687.0114402649
 10
733.0902021018
 20
-678.8251287995
 10
733.464243309
 20
-670.5051186029
 10
734.0871216447
 20
-662.0618928167
 10
734.9580522877
 20
-653.5060898334
 10
736.0759378728
 20
-644.8484898914
 10
737.4393698737
 20
-636.1000014928
 10
739.0466303777
 20
-627.271647658
 10
740.8956942504
 20
-618.3745520374
 10
742.984231687
 20
-609.4199248954
 10
745.3096111483
 20
-600.4190489858
 10
747.868902676
 20
-591.3832653351
 10
750.6588815847
 20
-582.3239589535
 10
753.6760325248
 20
-573.2525444896
 10
756.9165539119
 20
-564.180451848
 10
760.3763627168
 20
-555.1191117879
 10
764.0510996099
 20
-546.0799415204
 10
767.9361344543
 20
-537.0743303227
 10
772.0265721391
 20
-528.1136251878
 10
776.317258748
 20
-519.2091165276
 10
780.8027880524
 20
-510.372023947
 10
785.4775083238
 20
-501.613482107
 10
790.3355294546
 20
-492.9445266954
 10
795.3707303798
 20
-484.376080522
 10
800.5767667891
 20
-475.9189397556
 10
805.9470791214
 20
-467.5837603214
 10
811.4749008288
 20
-459.381044474
 10
817.1532669033
 20
-451.3211275655
 10
822.9750226523
 20
-443.4141650221
 10
828.9328327133
 20
-435.6701195491
 10
835.0191902965
 20
-428.0987485775
 10
841.2264266434
 20
-420.7095919701
 10
847.5467206893
 20
-413.511960001
 10
853.9721089177
 20
-406.5149216249
 10
860.4944953943
 20
-399.7272930503
 10
867.1056619681
 20
-393.1576266313
 10
873.7972786257
 20
-386.8142000913
 10
880.5609139872
 20
-380.7050060936
 10
887.3880459299
 20
-374.8377421703
 10
894.270072326
 20
-369.2198010239
 10
901.1983218811
 20
-363.8582612121
 10
908.1640650599
 20
-358.7598782293
 10
915.1585250856
 20
-353.9310759944
 10
922.1728889983
 20
-349.3779387569
 10
929.1983187596
 20
-345.1062034309
 10
936.2259623879
 20
-341.1212523664
 10
943.2469651125
 20
-337.4281065675
 10
950.2524805298
 20
-334.0314193665
 10
957.2336817503
 20
-330.9354705602
 10
964.1817725203
 20
-328.1441610176
 10
971.0879983048
 20
-325.6610077648
 10
977.9436573182
 20
-323.4891395537
 10
984.7401114889
 20
-321.6312929198
 10
991.4687973427
 20
-320.0898087338
 10
998.121236793
 20
-318.8666292527
 10
1004.6890478229
 20
-317.9632956721
 10
1011.1639550468
 20
-317.3809461847
 10
1017.5378001368
 20
-317.1203145458
 10
1023.8025521026
 20
-317.181729149
 10
1029.9503174104
 20
-317.5651126126
 10
1035.9733499283
 20
-318.2699818765
 10
1041.864060687
 20
-319.2954488116
 10
1047.6150274413
 20
-320.6402213382
 10
1053.2190040221
 20
-322.3026050546
 10
1058.668929467
 20
-324.2805053713
 10
1063.9579369164
 20
-326.571430151
 10
1069.0793622662
 20
-329.172492848
 10
1074.0267525642
 20
-332.0804161456
 10
1078.793874141
 20
-335.2915360852
 10
1083.3747204642
 20
-338.8018066831
 10
1087.7635197065
 20
-342.6068050285
 10
1091.9547420183
 20
-346.701736856
 10
1095.9431064956
 20
-351.0814425864
 10
1099.723587833
 20
-355.740403828
 10
1103.2914226564
 20
-360.6727503295
 10
1106.6421155245
 20
-365.8722673764
 10
1109.771444593
 20
-371.3324036218
 10
1112.6754669338
 20
-377.0462793406
 10
1115.3505235037
 20
-383.0066950982
 10
1117.7932437543
 20
-389.2061408218
 10
1120.000549879
 20
-395.6368052629
 10
1121.969660691
 20
-402.290585839
 10
1123.6980951273
 20
-409.1590988438
 10
1125.1836753755
 20
-416.2336900093
 10
1126.4245296171
 20
-423.5054454114
 10
1127.4190943863
 20
-430.9652027003
 10
1128.1661165402
 20
-438.6035626457
 10
1128.6646548371
 20
-446.4109009793
 10
1128.914081123
 20
-454.3773805216
 10
1128.914081123
 20
-462.4929635765
 10
1128.6646548371
 20
-470.7474245787
 10
1128.1661165402
 20
-479.1303629779
 10
1127.4190943863
 20
-487.6312163434
 10
1126.4245296171
 20
-496.2392736727
 10
1125.1836753755
 20
-504.9436888871
 10
1123.6980951273
 20
-513.7334944978
 10
1121.969660691
 20
-522.597615425
 10
1120.000549879
 20
-531.5248829521
 10
1117.7932437543
 20
-540.5040487984
 10
1115.3505235037
 20
-549.5237992915
 10
1112.6754669338
 20
-558.5727696231
 10
1109.771444593
 20
-567.6395581678
 10
1106.6421155245
 20
-576.7127408497
 10
1103.2914226564
 20
-585.780885536
 10
1099.723587833
 20
-594.8325664422
 10
1095.9431064956
 20
-603.8563785275
 10
1091.9547420183
 20
-612.840951866
 10
1087.7635197065
 20
-621.774965972
 10
1083.3747204642
 20
-630.6471640642
 10
1078.793874141
 20
-639.4463672487
 10
1074.0267525642
 20
-648.1614886049
 10
1069.0793622662
 20
-656.7815471544
 10
1063.9579369164
 20
-665.295681697
 10
1058.668929467
 20
-673.693164496
 10
1053.2190040221
 20
-681.963414795
 10
1047.6150274413
 20
-690.0960121492
 10
1041.864060687
 20
-698.0807095555
 10
1035.9733499283
 20
-705.9074463635
 10
1029.9503174104
 20
-713.5663609517
 10
1023.8025521026
 20
-721.0478031531
 10
1017.5378001368
 20
-728.3423464146
 10
1011.1639550468
 20
-735.4407996741
 10
1004.6890478229
 20
-742.3342189411
 10
998.121236793
 20
-749.0139185663
 10
991.4687973427
 20
-755.4714821853
 10
984.7401114889
 20
-761.6987733231
 10
977.9436573182
 20
-767.6879456461
 10
971.0879983048
 20
-773.4314528485
 10
964.1817725203
 20
-778.9220581602
 10
957.2336817503
 20
-784.1528434655
 10
950.2524805298
 20
-789.1172180196
 10
943.2469651125
 20
-793.8089267531
 10
936.2259623879
 20
-798.222058153
 10
929.1983187596
 20
-802.3510517116
 10
922.1728889983
 20
-806.1907049322
 10
915.1585250856
 20
-809.7361798846
 10
908.1640650599
 20
-812.9830093007
 10
901.1983218811
 20
-815.9271022032
 10
894.270072326
 20
-818.5647490602
 10
887.3880459299
 20
-820.8926264592
 10
880.5609139872
 20
-822.9078012946
 10
873.7972786257
 20
-824.6077344633
 10
867.1056619681
 20
-825.9902840641
 10
860.4944953943
 20
-827.0537080963
 10
853.9721089177
 20
-827.7966666547
 10
847.5467206893
 20
-828.2182236178
 10
841.2264266434
 20
-828.3178478276
 10
835.0191902965
 20
-828.0954137583
 10
828.9328327133
 20
-827.551201675
 10
822.9750226523
 20
-826.6858972803
 10
817.1532669033
 20
-825.5005908502
 10
811.4749008288
 20
-823.9967758608
 10
805.9470791214
 20
-822.1763471061
 10
800.5767667891
 20
-820.0415983107
 10
795.3707303798
 20
-817.5952192399
 10
790.3355294546
 20
-814.8402923104
 10
785.4775083238
 20
-811.7802887066
 10
780.8027880524
 20
-808.4190640068
 10
776.317258748
 20
-804.7608533255
 10
772.0265721391
 20
-800.8102659768
 10
767.9361344543
 20
-796.5722796669
 10
764.0510996099
 20
-792.0522342225
 10
760.3763627168
 20
-787.2558248621
 10
756.9165539119
 20
-782.1890950205
 10
753.6760325248
 20
-776.858428734
 10
750.6588815847
 20
-771.2705425966
 10
747.868902676
 20
-765.4324772969
 10
745.3096111483
 20
-759.3515887474
 10
742.984231687
 20
-753.0355388156
 10
740.8956942504
 20
-746.4922856704
 10
739.0466303777
 20
-739.7300737549
 10
737.4393698737
 20
-732.7574233983
 10
736.0759378728
 20
-725.5831200804
 10
734.9580522877
 20
-718.216203362
 10
734.0871216447
 20
-710.6659554952
 10
733.464243309
 20
-702.9418897278
 10
733.0902021018
 20
-695.0537383166
 10
732.965469312
 20
-687.0114402649
  0
LWPOLYLINE
  5
BB
330
1F
100
AcDbEntity
  8
0
  6
Continuous
 62
     7
370
    25
100
AcDbPolyline
 90
      161
 70
   128
 43
0.0
 10
768.8864937963
 20
-666.2746742246
 10
769.0114430249
 20
-658.8550227419
 10
769.3860980479
 20
-651.3025485154
 10
770.0098811744
 20
-643.628896913
 10
770.8818305762
 20
-635.8459001493
 10
772.0006017703
 20
-627.9655590411
 10
773.3644696928
 20
-620.0000245033
 10
774.9713313582
 20
-611.9615788127
 10
776.8187091021
 20
-603.86261667
 10
778.9037544021
 20
-595.7156260878
 10
781.2232522694
 20
-587.533169135
 10
783.7736262065
 20
-579.3278625673
 10
786.5509437215
 20
-571.1123583725
 10
789.5509223921
 20
-562.8993242627
 10
792.7689364688
 20
-554.7014241412
 10
796.200024007
 20
-546.5312985758
 10
799.8388945184
 20
-538.4015453079
 10
803.6799371286
 20
-530.3246998278
 10
807.717229228
 20
-522.3132160459
 10
811.9445456051
 20
-514.3794470893
 10
816.3553680443
 20
-506.5356262549
 10
820.9428953771
 20
-498.7938481457
 10
825.7000539689
 20
-491.1660500226
 10
830.6195086259
 20
-483.6639933973
 10
835.6936739057
 20
-476.2992458973
 10
840.9147258131
 20
-469.0831634297
 10
846.2746138646
 20
-462.0268726703
 10
851.7650735012
 20
-455.1412539083
 10
857.3776388322
 20
-448.4369242686
 10
863.1036556886
 20
-441.9242213415
 10
868.9342949675
 20
-435.613187243
 10
874.8605662457
 20
-429.5135531302
 10
880.8733316424
 20
-423.6347241967
 10
886.9633199093
 20
-417.9857651708
 10
893.1211407257
 20
-412.5753863377
 10
899.3372991784
 20
-407.4119301095
 10
905.6022104016
 20
-402.5033581615
 10
911.9062143562
 20
-397.8572391557
 10
918.2395907251
 20
-393.4807370709
 10
924.592573901
 20
-389.3806001562
 10
930.9553680443
 20
-385.5631505255
 10
937.3181621875
 20
-382.0342744094
 10
943.6711453634
 20
-378.799413079
 10
950.0045217323
 20
-375.8635544562
 10
956.3085256869
 20
-373.2312254221
 10
962.5734369101
 20
-370.9064848373
 10
968.7895953628
 20
-368.8929172833
 10
974.9474161793
 20
-367.1936275352
 10
981.0374044461
 20
-365.8112357747
 10
987.0501698428
 20
-364.7478735498
 10
992.976441121
 20
-364.0051804879
 10
998.8070803999
 20
-363.5843017678
 10
1004.5330972563
 20
-363.485886354
 10
1010.1456625873
 20
-363.710085996
 10
1015.6361222239
 20
-364.2565549942
 10
1020.9960102754
 20
-365.124450733
 10
1026.2170621829
 20
-366.31243498
 10
1031.2912274626
 20
-367.8186759497
 10
1036.2106821197
 20
-369.6408511277
 10
1040.9678407115
 20
-371.7761508519
 10
1045.5553680443
 20
-374.2212826449
 10
1049.9661904834
 20
-376.9724762906
 10
1054.1935068605
 20
-380.0254896481
 10
1058.23079896
 20
-383.3756151918
 10
1062.0718415701
 20
-387.017687271
 10
1065.7107120815
 20
-390.9460900747
 10
1069.1417996197
 20
-395.1547662903
 10
1072.3598136964
 20
-399.6372264442
 10
1075.3597923671
 20
-404.3865589078
 10
1078.1371098821
 20
-409.3954405547
 10
1080.6874838191
 20
-414.6561480523
 10
1083.0069816864
 20
-420.160569771
 10
1085.0920269864
 20
-425.9002182916
 10
1086.9394047304
 20
-431.8662434919
 10
1088.5462663957
 20
-438.0494461937
 10
1089.9101343182
 20
-444.4402923464
 10
1091.0289055123
 20
-451.0289277285
 10
1091.9008549141
 20
-457.8051931418
 10
1092.5246380407
 20
-464.7586400763
 10
1092.8992930637
 20
-471.8785468206
 10
1093.0242422922
 20
-479.1539349948
 10
1092.8992930637
 20
-486.5735864775
 10
1092.5246380407
 20
-494.126060704
 10
1091.9008549141
 20
-501.7997123064
 10
1091.0289055123
 20
-509.5827090701
 10
1089.9101343182
 20
-517.4630501783
 10
1088.5462663957
 20
-525.4285847161
 10
1086.9394047304
 20
-533.4670304067
 10
1085.0920269864
 20
-541.5659925494
 10
1083.0069816864
 20
-549.7129831316
 10
1080.6874838191
 20
-557.8954400843
 10
1078.1371098821
 20
-566.1007466521
 10
1075.3597923671
 20
-574.3162508469
 10
1072.3598136964
 20
-582.5292849567
 10
1069.1417996197
 20
-590.7271850782
 10
1065.7107120815
 20
-598.8973106436
 10
1062.0718415701
 20
-607.0270639115
 10
1058.23079896
 20
-615.1039093916
 10
1054.1935068605
 20
-623.1153931735
 10
1049.9661904834
 20
-631.0491621301
 10
1045.5553680443
 20
-638.8929829645
 10
1040.9678407115
 20
-646.6347610737
 10
1036.2106821197
 20
-654.2625591968
 10
1031.2912274626
 20
-661.7646158221
 10
1026.2170621828
 20
-669.129363322
 10
1020.9960102754
 20
-676.3454457897
 10
1015.6361222239
 20
-683.401736549
 10
1010.1456625873
 20
-690.2873553111
 10
1004.5330972563
 20
-696.9916849508
 10
998.8070803999
 20
-703.5043878779
 10
992.976441121
 20
-709.8154219764
 10
987.0501698428
 20
-715.9150560892
 10
981.0374044461
 20
-721.7938850226
 10
974.9474161792
 20
-727.4428440486
 10
968.7895953628
 20
-732.8532228817
 10
962.5734369101
 20
-738.0166791099
 10
956.3085256869
 20
-742.9252510579
 10
950.0045217323
 20
-747.5713700637
 10
943.6711453634
 20
-751.9478721485
 10
937.3181621875
 20
-756.0480090632
 10
930.9553680443
 20
-759.8654586939
 10
924.592573901
 20
-763.39433481
 10
918.2395907251
 20
-766.6291961404
 10
911.9062143562
 20
-769.5650547632
 10
905.6022104016
 20
-772.1973837973
 10
899.3372991784
 20
-774.5221243821
 10
893.1211407257
 20
-776.5356919361
 10
886.9633199093
 20
-778.2349816842
 10
880.8733316424
 20
-779.6173734446
 10
874.8605662457
 20
-780.6807356696
 10
868.9342949675
 20
-781.4234287315
 10
863.1036556886
 20
-781.8443074516
 10
857.3776388322
 20
-781.9427228654
 10
851.7650735012
 20
-781.7185232234
 10
846.2746138646
 20
-781.1720542252
 10
840.9147258131
 20
-780.3041584864
 10
835.6936739057
 20
-779.1161742394
 10
830.6195086259
 20
-777.6099332697
 10
825.7000539689
 20
-775.7877580917
 10
820.9428953771
 20
-773.6524583675
 10
816.3553680443
 20
-771.2073265745
 10
811.9445456051
 20
-768.4561329287
 10
807.717229228
 20
-765.4031195713
 10
803.6799371286
 20
-762.0529940276
 10
799.8388945184
 20
-758.4109219483
 10
796.200024007
 20
-754.4825191447
 10
792.7689364688
 20
-750.2738429291
 10
789.5509223921
 20
-745.7913827751
 10
786.5509437215
 20
-741.0420503116
 10
783.7736262065
 20
-736.0331686647
 10
781.2232522694
 20
-730.7724611671
 10
778.9037544021
 20
-725.2680394484
 10
776.8187091021
 20
-719.5283909278
 10
774.9713313582
 20
-713.5623657275
 10
773.3644696928
 20
-707.3791630257
 10
772.0006017703
 20
-700.988316873
 10
770.8818305762
 20
-694.3996814909
 10
770.0098811744
 20
-687.6234160776
 10
769.3860980479
 20
-680.6699691431
 10
769.0114430249
 20
-673.5500623987
 10
768.8864937963
 20
-666.2746742246
  0
LWPOLYLINE
  5
BC
330
1F
100
AcDbEntity
  8
0
  6
Continuous
 62
     7
370
    25
100
AcDbPolyline
 90
       98
 70
   128
 43
0.0
 10
1221.7213014438
 20
-362.9930566753
 10
1221.7345886578
 20
-363.0007284674
 10
1226.9966187516
 20
-366.2415970873
 10
1232.0779342365
 20
-369.782242577
 10
1236.9730939126
 20
-373.6188735246
 10
1241.6768559204
 20
-377.7473815695
 10
1246.1841833537
 20
-382.1633458019
 10
1250.4902496534
 20
-386.8620374968
 10
1254.5904437758
 20
-391.8384251773
 10
1258.4803751304
 20
-397.0871800029
 10
1262.1558782812
 20
-402.6026814755
 10
1265.6130174074
 20
-408.3790234579
 10
1268.8480905178
 20
-414.4100204984
 10
1271.8576334151
 20
-420.6892144544
 10
1274.6384234055
 20
-427.2098814077
 10
1277.1874827492
 20
-433.9650388648
 10
1279.5020818498
 20
-440.9474532338
 10
1281.5797421766
 20
-448.1496475707
 10
1283.4182389188
 20
-455.5639095853
 10
1285.015603368
 20
-463.1822999001
 10
1286.3701250265
 20
-470.996660552
 10
1287.4803534384
 20
-478.9986237278
 10
1288.3450997434
 20
-487.179620725
 10
1288.9634379495
 20
-495.5308911271
 10
1289.3347059247
 20
-504.0434921844
 10
1289.4585061058
 20
-512.7083083907
 10
1289.3347059247
 20
-521.5160612437
 10
1288.9634379495
 20
-530.457319181
 10
1288.3450997434
 20
-539.5225076796
 10
1287.4803534384
 20
-548.7019195087
 10
1286.3701250265
 20
-557.9857251242
 10
1285.015603368
 20
-567.3639831944
 10
1283.4182389188
 20
-576.8266512458
 10
1281.5797421766
 20
-586.3635964163
 10
1279.5020818498
 20
-595.9646063062
 10
1277.1874827492
 20
-605.6193999136
 10
1274.6384234055
 20
-615.3176386438
 10
1271.8576334151
 20
-625.0489373797
 10
1268.8480905178
 20
-634.802875603
 10
1265.6130174074
 20
-644.5690085522
 10
1262.1558782812
 20
-654.3368784076
 10
1258.4803751304
 20
-664.0960254896
 10
1254.5904437758
 20
-673.8359994589
 10
1250.4902496534
 20
-683.5463705074
 10
1246.1841833537
 20
-693.2167405267
 10
1241.6768559204
 20
-702.8367542423
 10
1236.9730939126
 20
-712.3961103026
 10
1232.0779342365
 20
-721.8845723097
 10
1226.9966187516
 20
-731.2919797807
 10
1221.7345886578
 20
-740.6082590281
 10
1216.2974786689
 20
-749.8234339469
 10
1210.6911109782
 20
-758.9276366967
 10
1204.9214890249
 20
-767.9111182694
 10
1198.9947910645
 20
-776.7642589278
 10
1192.9173635537
 20
-785.4775785072
 10
1186.6957143541
 20
-794.0417465667
 10
1180.3365057636
 20
-802.4475923807
 10
1173.8465473818
 20
-810.6861147588
 10
1167.2327888189
 20
-818.7484916851
 10
1160.5023122532
 20
-826.6260897642
 10
1153.6623248475
 20
-834.310473467
 10
1146.7201510317
 20
-841.7934141629
 10
1139.6832246594
 20
-849.0668989315
 10
1132.5590810476
 20
-856.1231391431
 10
1125.3553489077
 20
-862.9545787991
 10
1118.0797421766
 20
-869.5539026227
 10
1110.7400517561
 20
-875.9140438926
 10
1103.3441371706
 20
-882.0281920104
 10
1095.8999181507
 20
-887.8897997929
 10
1088.4153661525
 20
-893.4925904839
 10
1080.8984958219
 20
-898.8305644748
 10
1073.3573564118
 20
-903.8980057291
 10
1065.8000231632
 20
-908.6894879041
 10
1058.2345886578
 20
-913.1998801604
 10
1050.6691541525
 20
-917.4243526571
 10
1043.1118209039
 20
-921.3583817233
 10
1035.5706814938
 20
-924.9977547021
 10
1028.0538111631
 20
-928.3385744617
 10
1020.569259165
 20
-931.3772635687
 10
1013.1250401451
 20
-934.1105681186
 10
1005.7291255596
 20
-936.5355612206
 10
998.3894351391
 20
-938.6496461312
 10
991.1138284079
 20
-940.4505590353
 10
983.910096268
 20
-941.9363714704
 10
976.7859526562
 20
-943.1054923912
 10
969.7490262839
 20
-943.9566698737
 10
962.8068524681
 20
-944.4889924559
 10
955.9668650625
 20
-944.7018901134
 10
949.2363884967
 20
-944.59513487
 10
942.6226299338
 20
-944.1688410418
 10
936.1326715521
 20
-943.4234651151
 10
929.7734629615
 20
-942.359805257
 10
923.551813762
 20
-940.9790004612
 10
917.4743862512
 20
-939.2825293279
 10
911.5476882908
 20
-937.272208481
 10
905.7780663375
 20
-934.9501906224
 10
900.1716986468
 20
-932.3189622271
 10
894.7478758718
 20
-929.3890126722
  0
LWPOLYLINE
  5
BD
330
1F
100
AcDbEntity
  8
0
  6
Continuous
 62
     7
370
    25
100
AcDbPolyline
 90
      131
 70
   128
 43
0.0
 10
1055.0435794376
 20
-322.9236136134
 10
1061.5111996817
 20
-321.0760987434
 10
1068.7868064128
 20
-319.2751858393
 10
1075.9905385527
 20
-317.7893734042
 10
1083.1146821645
 20
-316.6202524834
 10
1090.1516085368
 20
-315.7690750008
 10
1097.0937823526
 20
-315.2367524186
 10
1103.9337697583
 20
-315.0238547612
 10
1110.664246324
 20
-315.1306100046
 10
1117.2780048869
 20
-315.5569038327
 10
1123.7679632686
 20
-316.3022797595
 10
1130.1271718592
 20
-317.3659396176
 10
1136.3488210588
 20
-318.7467444134
 10
1142.4262485696
 20
-320.4432155467
 10
1148.3529465299
 20
-322.4535363935
 10
1154.1225684833
 20
-324.7755542521
 10
1159.7289361739
 20
-327.4067826475
 10
1165.1660461629
 20
-330.3444039944
 10
1170.4280762567
 20
-333.5852726144
 10
1175.5093917416
 20
-337.1259181041
 10
1180.4045514177
 20
-340.9625490517
 10
1185.1083134255
 20
-345.0910570966
 10
1189.6156408588
 20
-349.507021329
 10
1193.9217071585
 20
-354.2057130239
 10
1198.0219012809
 20
-359.1821007044
 10
1201.9118326354
 20
-364.43085553
 10
1205.5873357862
 20
-369.9463570026
 10
1209.0444749124
 20
-375.722698985
 10
1212.2795480229
 20
-381.7536960255
 10
1215.2890909202
 20
-388.0328899815
 10
1218.0698809105
 20
-394.5535569348
 10
1220.6189402543
 20
-401.3087143919
 10
1222.9335393549
 20
-408.2911287609
 10
1225.0111996817
 20
-415.4933230978
 10
1226.8496964238
 20
-422.9075851124
 10
1228.4470608731
 20
-430.5259754272
 10
1229.8015825315
 20
-438.3403360791
 10
1230.9118109435
 20
-446.3422992549
 10
1231.7765572485
 20
-454.5232962521
 10
1232.3948954546
 20
-462.8745666542
 10
1232.7661634298
 20
-471.3871677115
 10
1232.8899636109
 20
-480.0519839178
 10
1232.7661634298
 20
-488.8597367708
 10
1232.3948954546
 20
-497.8009947081
 10
1231.7765572485
 20
-506.8661832067
 10
1230.9118109435
 20
-516.0455950358
 10
1229.8015825315
 20
-525.3294006513
 10
1228.4470608731
 20
-534.7076587215
 10
1226.8496964238
 20
-544.1703267729
 10
1225.0111996817
 20
-553.7072719434
 10
1222.9335393549
 20
-563.3082818333
 10
1220.6189402543
 20
-572.9630754407
 10
1218.0698809105
 20
-582.6613141709
 10
1215.2890909202
 20
-592.3926129068
 10
1212.2795480229
 20
-602.1465511301
 10
1209.0444749124
 20
-611.9126840793
 10
1205.5873357862
 20
-621.6805539347
 10
1201.9118326354
 20
-631.4397010167
 10
1198.0219012809
 20
-641.1796749859
 10
1193.9217071585
 20
-650.8900460345
 10
1189.6156408588
 20
-660.5604160538
 10
1185.1083134255
 20
-670.1804297694
 10
1180.4045514177
 20
-679.7397858297
 10
1175.5093917416
 20
-689.2282478368
 10
1170.4280762567
 20
-698.6356553078
 10
1165.1660461629
 20
-707.9519345552
 10
1159.7289361739
 20
-717.167109474
 10
1154.1225684833
 20
-726.2713122238
 10
1148.3529465299
 20
-735.2547937965
 10
1142.4262485696
 20
-744.1079344549
 10
1136.3488210588
 20
-752.8212540343
 10
1130.1271718592
 20
-761.3854220938
 10
1123.7679632686
 20
-769.7912679078
 10
1117.2780048869
 20
-778.0297902859
 10
1110.664246324
 20
-786.0921672122
 10
1103.9337697583
 20
-793.9697652913
 10
1097.0937823526
 20
-801.6541489941
 10
1090.1516085368
 20
-809.13708969
 10
1083.1146821645
 20
-816.4105744586
 10
1075.9905385527
 20
-823.4668146702
 10
1068.7868064128
 20
-830.2982543262
 10
1061.5111996817
 20
-836.8975781498
 10
1054.1715092612
 20
-843.2577194197
 10
1046.7755946757
 20
-849.3718675374
 10
1039.3313756558
 20
-855.23347532
 10
1031.8468236576
 20
-860.836266011
 10
1024.329953327
 20
-866.1742400019
 10
1016.7888139169
 20
-871.2416812562
 10
1009.2314806683
 20
-876.0331634311
 10
1001.6660461629
 20
-880.5435556875
 10
994.1006116576
 20
-884.7680281842
 10
986.543278409
 20
-888.7020572504
 10
979.0021389989
 20
-892.3414302292
 10
971.4852686682
 20
-895.6822499888
 10
964.0007166701
 20
-898.7209390958
 10
956.5564976502
 20
-901.4542436457
 10
949.1605830647
 20
-903.8792367477
 10
941.8208926442
 20
-905.9933216583
 10
934.545285913
 20
-907.7942345624
 10
927.3415537731
 20
-909.2800469975
 10
920.2174101613
 20
-910.4491679183
 10
913.180483789
 20
-911.3003454008
 10
906.2383099732
 20
-911.832667983
 10
899.3983225675
 20
-912.0455656405
 10
892.6678460018
 20
-911.9388103971
 10
886.0540874389
 20
-911.5125165689
 10
879.5641290572
 20
-910.7671406422
 10
873.2049204666
 20
-909.7034807841
 10
866.983271267
 20
-908.3226759882
 10
860.9058437563
 20
-906.626204855
 10
854.9791457959
 20
-904.6158840081
 10
849.2095238425
 20
-902.2938661495
 10
843.6031561519
 20
-899.6626377541
 10
838.1660461629
 20
-896.7250164072
 10
832.9040160692
 20
-893.4841477872
 10
827.8227005843
 20
-889.9435022975
 10
822.9275409081
 20
-886.10687135
 10
818.2237789003
 20
-881.9783633051
 10
813.716451467
 20
-877.5623990726
 10
809.4103851673
 20
-872.8637073778
 10
805.3101910449
 20
-867.8873196972
 10
801.4202596904
 20
-862.6385648716
 10
797.7447565396
 20
-857.1230633991
 10
794.2876174134
 20
-851.3467214167
 10
791.052544303
 20
-845.3157243762
 10
788.0430014056
 20
-839.0365304202
 10
785.2622114153
 20
-832.5158634669
 10
782.7131520715
 20
-825.7607060098
 10
780.3985529709
 20
-818.7782916407
 10
778.3208926442
 20
-811.5760973038
 10
776.6961945279
 20
-805.0876699106
  0
LWPOLYLINE
  5
BE
330
1F
100
AcDbEntity
  8
0
  6
Continuous
 62
     7
370
    25
100
AcDbPolyline
 90
      100
 70
   128
 43
0.0
 10
1125.5866848703
 20
-353.3293542303
 10
1127.9141833572
 20
-354.0547591727
 10
1133.4766946878
 20
-356.0451425431
 10
1138.8786150471
 20
-358.3492372885
 10
1144.1133630272
 20
-360.9642362244
 10
1149.174560894
 20
-363.8869533772
 10
1154.0560423576
 20
-367.1138278665
 10
1158.7518600846
 20
-370.6409282426
 10
1163.2562929447
 20
-374.4639572772
 10
1167.56385298
 20
-378.5782571982
 10
1171.6692920924
 20
-382.9788153648
 10
1175.5676084366
 20
-387.660270375
 10
1179.2540525147
 20
-392.6169185967
 10
1182.7241329624
 20
-397.8427211178
 10
1185.9736220211
 20
-403.3313111028
 10
1188.9985606891
 20
-409.0760015502
 10
1191.7952635445
 20
-415.0697934396
 10
1194.3603232356
 20
-421.3053842589
 10
1196.6906146325
 20
-427.7751769013
 10
1198.7832986338
 20
-434.4712889209
 10
1200.6358256267
 20
-441.3855621367
 10
1202.2459385922
 20
-448.5095725719
 10
1203.6116758557
 20
-455.8346407171
 10
1204.7313734768
 20
-463.3518421052
 10
1205.6036672764
 20
-471.0520181842
 10
1206.2274944988
 20
-478.9257874755
 10
1206.6020951068
 20
-486.9635570043
 10
1206.727012707
 20
-495.1555339865
 10
1206.6020951068
 20
-503.49173776
 10
1206.2274944988
 20
-511.9620119446
 10
1205.6036672764
 20
-520.556036816
 10
1204.7313734768
 20
-529.2633418786
 10
1203.6116758557
 20
-538.0733186224
 10
1202.2459385922
 20
-546.975233448
 10
1200.6358256267
 20
-555.9582407433
 10
1198.7832986338
 20
-565.0113960977
 10
1196.6906146325
 20
-574.1236696359
 10
1194.3603232356
 20
-583.2839594561
 10
1191.7952635445
 20
-592.4811051564
 10
1188.9985606891
 20
-601.7039014314
 10
1185.9736220211
 20
-610.9411117245
 10
1182.7241329624
 20
-620.1814819178
 10
1179.2540525147
 20
-629.4137540436
 10
1175.5676084366
 20
-638.6266800005
 10
1171.6692920924
 20
-647.8090352573
 10
1167.56385298
 20
-656.9496325286
 10
1163.2562929447
 20
-666.0373354045
 10
1158.7518600846
 20
-675.0610719191
 10
1154.0560423576
 20
-684.0098480393
 10
1149.174560894
 20
-692.87276106
 10
1144.1133630272
 20
-701.6390128867
 10
1138.8786150471
 20
-710.2979231921
 10
1133.4766946878
 20
-718.8389424276
 10
1127.9141833572
 20
-727.2516646771
 10
1122.1978581184
 20
-735.5258403343
 10
1116.3346834332
 20
-743.6513885907
 10
1110.3318026769
 20
-751.6184097174
 10
1104.196529435
 20
-759.4171971264
 10
1097.9363385928
 20
-767.0382491966
 10
1091.5588572285
 20
-774.47228085
 10
1085.0718553209
 20
-781.710234864
 10
1078.4832362826
 20
-788.7432929067
 10
1071.8010273308
 20
-795.5628862801
 10
1065.033369708
 20
-802.1607063603
 10
1058.1885087624
 20
-808.5287147198
 10
1051.2747839028
 20
-814.6591529213
 10
1044.3006184378
 20
-820.5445519702
 10
1037.2745093139
 20
-826.1777414143
 10
1030.2050167627
 20
-831.5518580801
 10
1023.1007538719
 20
-836.6603544341
 10
1015.9703760916
 20
-841.4970065605
 10
1008.8225706886
 20
-846.0559217436
 10
1001.6660461629
 20
-850.3315456477
 10
994.5095216372
 20
-854.3186690835
 10
987.3617162342
 20
-858.0124343554
 10
980.2313384539
 20
-861.4083411792
 10
973.1270755631
 20
-864.5022521658
 10
966.0575830119
 20
-867.290397861
 10
959.031473888
 20
-869.7693813389
 10
952.0573084231
 20
-871.9361823399
 10
945.1435835634
 20
-873.7881609508
 10
938.2987226178
 20
-875.323060821
 10
931.531064995
 20
-876.5390119113
 10
924.8488560433
 20
-877.4345327727
 10
918.2602370049
 20
-878.0085323509
 10
911.7732350973
 20
-878.260311316
 10
905.3957537331
 20
-878.1895629139
 10
899.1355628909
 20
-877.7963733407
 10
893.0002896489
 20
-877.0812216374
 10
886.9974088926
 20
-876.0449791062
 10
881.1342342074
 20
-874.6889082488
 10
875.4179089687
 20
-873.0146612289
 10
869.855397638
 20
-871.0242778585
 10
864.4534772787
 20
-868.7201831131
 10
859.2187292986
 20
-866.1051841773
 10
854.1575314318
 20
-863.1824670244
 10
849.2760499683
 20
-859.9555925352
 10
844.5802322412
 20
-856.428492159
 10
840.0757993812
 20
-852.6054631245
 10
838.3041969328
 20
-850.9711399868
  0
LWPOLYLINE
  5
BF
330
1F
100
AcDbEntity
  8
0
  6
Continuous
 62
     7
370
    25
100
AcDbPolyline
 90
       57
 70
   128
 43
0.0
 10
808.1586902851
 20
-688.9460306842
 10
808.2836395137
 20
-681.5263792015
 10
808.6582945367
 20
-673.973904975
 10
809.2820776633
 20
-666.3002533726
 10
810.154027065
 20
-658.5172566089
 10
811.2727982592
 20
-650.6369155007
 10
812.6366661817
 20
-642.6713809629
 10
814.243527847
 20
-634.6329352723
 10
816.090905591
 20
-626.5339731296
 10
818.175950891
 20
-618.3869825474
 10
820.4954487583
 20
-610.2045255947
 10
823.0458226953
 20
-601.9992190269
 10
825.8231402103
 20
-593.7837148321
 10
828.823118881
 20
-585.5706807223
 10
832.0411329576
 20
-577.3727806008
 10
835.4722204958
 20
-569.2026550354
 10
839.1110910073
 20
-561.0729017675
 10
842.9521336174
 20
-552.9960562874
 10
846.9894257169
 20
-544.9845725055
 10
851.2167420939
 20
-537.0508035489
 10
855.6275645331
 20
-529.2069827145
 10
860.2150918659
 20
-521.4652046053
 10
864.9722504577
 20
-513.8374064822
 10
869.8917051147
 20
-506.3353498569
 10
874.9658703945
 20
-498.970602357
 10
880.1869223019
 20
-491.7545198893
 10
885.5468103534
 20
-484.69822913
 10
891.0372699901
 20
-477.8126103679
 10
896.649835321
 20
-471.1082807282
 10
902.3758521775
 20
-464.5955778011
 10
908.2064914563
 20
-458.2845437026
 10
914.1327627345
 20
-452.1849095898
 10
920.1455281313
 20
-446.3060806564
 10
926.2355163981
 20
-440.6571216304
 10
932.3933372146
 20
-435.2467427973
 10
938.6094956673
 20
-430.0832865692
 10
944.8744068905
 20
-425.1747146211
 10
951.1784108451
 20
-420.5285956153
 10
957.511787214
 20
-416.1520935305
 10
963.8647703898
 20
-412.0519566158
 10
970.2275645331
 20
-408.2345069851
 10
976.5903586764
 20
-404.705630869
 10
982.9433418522
 20
-401.4707695387
 10
989.2767182211
 20
-398.5349109158
 10
995.5807221758
 20
-395.9025818817
 10
1001.8456333989
 20
-393.5778412969
 10
1008.0617918516
 20
-391.5642737429
 10
1014.2196126681
 20
-389.8649839948
 10
1020.3096009349
 20
-388.4825922344
 10
1026.3223663317
 20
-387.4192300094
 10
1032.2486376099
 20
-386.6765369475
 10
1038.0792768887
 20
-386.2556582274
 10
1043.8052937452
 20
-386.1572428136
 10
1049.4178590762
 20
-386.3814424556
 10
1054.9083187128
 20
-386.9279114538
 10
1060.2682067643
 20
-387.7958071926
 10
1063.4877658362
 20
-388.4866663441
  0
LWPOLYLINE
  5
C0
330
1F
100
AcDbEntity
  8
0
  6
Continuous
 62
     7
370
    25
100
AcDbPolyline
 90
       17
 70
   128
 43
0.0
 10
837.6951667412
 20
-779.6132993349
 10
835.4722204958
 20
-777.1538756043
 10
832.0411329576
 20
-772.9451993887
 10
828.823118881
 20
-768.4627392348
 10
825.8231402103
 20
-763.7134067712
 10
823.0458226953
 20
-758.7045251243
 10
820.4954487583
 20
-753.4438176267
 10
818.175950891
 20
-747.939395908
 10
816.090905591
 20
-742.1997473874
 10
814.243527847
 20
-736.2337221871
 10
812.6366661817
 20
-730.0505194854
 10
811.2727982592
 20
-723.6596733326
 10
810.154027065
 20
-717.0710379505
 10
809.2820776633
 20
-710.2947725372
 10
808.6582945367
 20
-703.3413256027
 10
808.2836395137
 20
-696.2214188584
 10
808.1586902851
 20
-688.9460306842
  0
LWPOLYLINE
  5
C1
330
1F
100
AcDbEntity
  8
0
  6
Continuous
 62
     7
370
    25
100
AcDbPolyline
 90
       48
 70
   128
 43
0.0
 10
864.1337772221
 20
-758.2430480214
 10
864.2588706059
 20
-750.1250420335
 10
864.6339895178
 20
-741.8730700248
 10
865.2586504473
 20
-733.4977683971
 10
866.1320482359
 20
-725.009932518
 10
867.2530571152
 20
-716.4205028066
 10
868.6202321579
 20
-707.7405506318
 10
870.2318111398
 20
-698.9812640414
 10
872.0857168119
 20
-690.1539333415
 10
874.1795595775
 20
-681.2699365442
 10
876.5106405723
 20
-672.3407247011
 10
879.075955143
 20
-663.3778071441
 10
881.8721967204
 20
-654.3927366501
 10
884.8957610816
 20
-645.39709455
 10
888.1427509948
 20
-636.4024758013
 10
891.6089812437
 20
-627.420474042
 10
895.2899840214
 20
-618.4626666478
 10
899.1810146894
 20
-609.5405998089
 10
903.2770578931
 20
-600.6657736473
 10
907.5728340266
 20
-591.8496273946
 10
912.0628060375
 20
-583.1035246461
 10
916.7411865642
 20
-574.4387387149
 10
921.6019453954
 20
-565.8664381003
 10
926.638817243
 20
-557.3976720924
 10
931.8453098171
 20
-549.0433565301
 10
937.2147121952
 20
-540.8142597311
 10
942.7401034714
 20
-532.7209886121
 10
948.4143616776
 20
-524.7739750169
 10
954.2301729634
 20
-516.9834622702
 10
960.180041023
 20
-509.3594919745
 10
966.2562967579
 20
-501.911891067
 10
972.4511081616
 20
-494.6502591532
 10
978.7564904153
 20
-487.5839561332
 10
985.1643161794
 20
-480.7220901374
 10
991.6663260695
 20
-474.0735057866
 10
998.2541393022
 20
-467.6467727917
 10
1004.9192644979
 20
-461.4501749077
 10
1011.6531106254
 20
-455.4916992561
 10
1018.4469980753
 20
-449.7790260303
 10
1025.2921698481
 20
-444.319518596
 10
1032.179802841
 20
-439.120214
 10
1039.1010192207
 20
-434.1878139003
 10
1046.0468978667
 20
-429.5286759272
 10
1053.0084858698
 20
-425.1488054893
 10
1059.9768100723
 20
-421.0538480325
 10
1066.9428886338
 20
-417.2490817633
 10
1073.8977426084
 20
-413.7394108454
 10
1079.1024641389
 20
-411.302943218
  0
ARC
  5
C2
330
1F
100
AcDbEntity
  8
0
  6
Continuous
 62
     7
370
    25
100
AcDbCircle
 10
1100.0481588664
 20
-758.6746939024
 30
0.0
 40
235.9147765290612
100
AcDbArc
 50
179.8951676475
 51
185.6071642058
  0
ENDSEC
  0
SECTION
  2
OBJECTS
  0
DICTIONARY
  5
C
330
0
100
AcDbDictionary
281
     1
  3
ACAD_GROUP
350
D
  3
ACAD_LAYOUT
350
1A
  3
ACAD_MLINESTYLE
350
17
  3
ACAD_PLOTSETTINGS
350
19
  3
ACAD_PLOTSTYLENAME
350
E
  3
ACAD_SCALELIST
350
47
  0
DICTIONARY
  5
D
102
{ACAD_REACTORS
330
C
102
}
330
C
100
AcDbDictionary
281
     1
  0
DICTIONARY
  5
1A
102
{ACAD_REACTORS
330
C
102
}
330
C
100
AcDbDictionary
281
     1
  3
Layout1
350
1E
  3
Layout2
350
26
  3
Model
350
22
  0
DICTIONARY
  5
17
102
{ACAD_REACTORS
330
C
102
}
330
C
100
AcDbDictionary
281
     1
  3
Standard
350
18
  0
DICTIONARY
  5
19
102
{ACAD_REACTORS
330
C
102
}
330
C
100
AcDbDictionary
281
     1
  0
ACDBDICTIONARYWDFLT
  5
E
102
{ACAD_REACTORS
330
C
102
}
330
C
100
AcDbDictionary
281
     1
  3
Normal
350
F
100
AcDbDictionaryWithDefault
340
F
  0
DICTIONARY
  5
47
102
{ACAD_REACTORS
330
C
102
}
330
C
100
AcDbDictionary
281
     1
  3
A0
350
48
  3
A1
350
49
  3
A2
350
4A
  3
A3
350
4B
  3
A4
350
4C
  3
A5
350
4D
  3
A6
350
4E
  3
A7
350
4F
  3
A8
350
50
  3
A9
350
51
  3
B0
350
52
  3
B1
350
53
  3
B2
350
54
  3
B3
350
55
  3
B4
350
56
  3
B5
350
57
  3
B6
350
58
  3
B7
350
59
  3
B8
350
5A
  3
B9
350
5B
  3
C0
350
5C
  3
C1
350
5D
  3
C2
350
5E
  3
C3
350
5F
  3
C4
350
60
  3
C5
350
61
  3
C6
350
62
  3
C7
350
63
  3
C8
350
64
  3
C9
350
65
  3
D0
350
66
  3
D1
350
67
  3
D2
350
68
  0
LAYOUT
  5
1E
102
{ACAD_REACTORS
330
1A
102
}
330
1A
100
AcDbPlotSettings
  1

  2
none_device
  4

  6

 40
0.0
 41
0.0
 42
0.0
 43
0.0
 44
0.0
 45
0.0
 46
0.0
 47
0.0
 48
0.0
 49
0.0
140
0.0
141
0.0
142
1.0
143
1.0
 70
   688
 72
     1
 73
     0
 74
     5
  7

 75
    16
147
1.0
148
0.0
149
0.0
100
AcDbLayout
  1
Layout1
 70
     1
 71
     1
 10
0.0
 20
0.0
 11
420.0
 21
297.0
 12
0.0
 22
0.0
 32
0.0
 14
1.0000000000E+20
 24
1.0000000000E+20
 34
1.0000000000E+20
 15
-1.0000000000E+20
 25
-1.0000000000E+20
 35
-1.0000000000E+20
146
0.0
 13
0.0
 23
0.0
 33
0.0
 16
1.0
 26
0.0
 36
0.0
 17
0.0
 27
1.0
 37
0.0
 76
     0
330
1B
  0
LAYOUT
  5
26
102
{ACAD_REACTORS
330
1A
102
}
330
1A
100
AcDbPlotSettings
  1

  2
none_device
  4

  6

 40
0.0
 41
0.0
 42
0.0
 43
0.0
 44
0.0
 45
0.0
 46
0.0
 47
0.0
 48
0.0
 49
0.0
140
0.0
141
0.0
142
1.0
143
1.0
 70
   688
 72
     1
 73
     0
 74
     5
  7

 75
    16
147
1.0
148
0.0
149
0.0
100
AcDbLayout
  1
Layout2
 70
     1
 71
     2
 10
0.0
 20
0.0
 11
0.0
 21
0.0
 12
0.0
 22
0.0
 32
0.0
 14
0.0
 24
0.0
 34
0.0
 15
0.0
 25
0.0
 35
0.0
146
0.0
 13
0.0
 23
0.0
 33
0.0
 16
1.0
 26
0.0
 36
0.0
 17
0.0
 27
1.0
 37
0.0
 76
     0
330
23
  0
LAYOUT
  5
22
102
{ACAD_REACTORS
330
1A
102
}
330
1A
100
AcDbPlotSettings
  1

  2
none_device
  4
Letter_(8.50_x_11.00_Inches)
  6

 40
6.35
 41
6.35
 42
6.35000508
 43
6.35000508
 44
215.9
 45
279.4
 46
0.0
 47
0.0
 48
0.0
 49
0.0
140
0.0
141
0.0
142
1.0
143
1.0
 70
  1712
 72
     1
 73
     0
 74
     0
  7

 75
     0
147
1.0
148
0.0
149
0.0
100
AcDbLayout
  1
Model
 70
     1
 71
     0
 10
0.0
 20
0.0
 11
279.4
 21
215.9
 12
0.0
 22
0.0
 32
0.0
 14
0.0
 24
0.0
 34
0.0
 15
279.4
 25
215.9
 35
0.0
146
0.0
 13
0.0
 23
0.0
 33
0.0
 16
1.0
 26
0.0
 36
0.0
 17
0.0
 27
1.0
 37
0.0
 76
     0
330
1F
331
29
  0
MLINESTYLE
  5
18
102
{ACAD_REACTORS
330
17
102
}
330
17
100
AcDbMlineStyle
  2
Standard
 70
     0
  3

 62
   256
 51
90.0
 52
90.0
 71
     2
 49
0.5
 62
   256
  6
BYLAYER
 49
-0.5
 62
   256
  6
BYLAYER
  0
ACDBPLACEHOLDER
  5
F
102
{ACAD_REACTORS
330
E
102
}
330
E
  0
SCALE
  5
48
102
{ACAD_REACTORS
330
47
102
}
330
47
100
AcDbScale
 70
     0
300
1:1
140
1.0
141
1.0
290
     1
  0
SCALE
  5
49
102
{ACAD_REACTORS
330
47
102
}
330
47
100
AcDbScale
 70
     0
300
1:2
140
1.0
141
2.0
290
     0
  0
SCALE
  5
4A
102
{ACAD_REACTORS
330
47
102
}
330
47
100
AcDbScale
 70
     0
300
1:4
140
1.0
141
4.0
290
     0
  0
SCALE
  5
4B
102
{ACAD_REACTORS
330
47
102
}
330
47
100
AcDbScale
 70
     0
300
1:5
140
1.0
141
5.0
290
     0
  0
SCALE
  5
4C
102
{ACAD_REACTORS
330
47
102
}
330
47
100
AcDbScale
 70
     0
300
1:8
140
1.0
141
8.0
290
     0
  0
SCALE
  5
4D
102
{ACAD_REACTORS
330
47
102
}
330
47
100
AcDbScale
 70
     0
300
1:10
140
1.0
141
10.0
290
     0
  0
SCALE
  5
4E
102
{ACAD_REACTORS
330
47
102
}
330
47
100
AcDbScale
 70
     0
300
1:16
140
1.0
141
16.0
290
     0
  0
SCALE
  5
4F
102
{ACAD_REACTORS
330
47
102
}
330
47
100
AcDbScale
 70
     0
300
1:20
140
1.0
141
20.0
290
     0
  0
SCALE
  5
50
102
{ACAD_REACTORS
330
47
102
}
330
47
100
AcDbScale
 70
     0
300
1:30
140
1.0
141
30.0
290
     0
  0
SCALE
  5
51
102
{ACAD_REACTORS
330
47
102
}
330
47
100
AcDbScale
 70
     0
300
1:40
140
1.0
141
40.0
290
     0
  0
SCALE
  5
52
102
{ACAD_REACTORS
330
47
102
}
330
47
100
AcDbScale
 70
     0
300
1:50
140
1.0
141
50.0
290
     0
  0
SCALE
  5
53
102
{ACAD_REACTORS
330
47
102
}
330
47
100
AcDbScale
 70
     0
300
1:100
140
1.0
141
100.0
290
     0
  0
SCALE
  5
54
102
{ACAD_REACTORS
330
47
102
}
330
47
100
AcDbScale
 70
     0
300
2:1
140
2.0
141
1.0
290
     0
  0
SCALE
  5
55
102
{ACAD_REACTORS
330
47
102
}
330
47
100
AcDbScale
 70
     0
300
4:1
140
4.0
141
1.0
290
     0
  0
SCALE
  5
56
102
{ACAD_REACTORS
330
47
102
}
330
47
100
AcDbScale
 70
     0
300
8:1
140
8.0
141
1.0
290
     0
  0
SCALE
  5
57
102
{ACAD_REACTORS
330
47
102
}
330
47
100
AcDbScale
 70
     0
300
10:1
140
10.0
141
1.0
290
     0
  0
SCALE
  5
58
102
{ACAD_REACTORS
330
47
102
}
330
47
100
AcDbScale
 70
     0
300
100:1
140
100.0
141
1.0
290
     0
  0
SCALE
  5
59
102
{ACAD_REACTORS
330
47
102
}
330
47
100
AcDbScale
 70
     0
300
1/128" = 1'-0"
140
0.0078125
141
12.0
290
     0
  0
SCALE
  5
5A
102
{ACAD_REACTORS
330
47
102
}
330
47
100
AcDbScale
 70
     0
300
1/64" = 1'-0"
140
0.015625
141
12.0
290
     0
  0
SCALE
  5
5B
102
{ACAD_REACTORS
330
47
102
}
330
47
100
AcDbScale
 70
     0
300
1/32" = 1'-0"
140
0.03125
141
12.0
290
     0
  0
SCALE
  5
5C
102
{ACAD_REACTORS
330
47
102
}
330
47
100
AcDbScale
 70
     0
300
1/16" = 1'-0"
140
0.0625
141
12.0
290
     0
  0
SCALE
  5
5D
102
{ACAD_REACTORS
330
47
102
}
330
47
100
AcDbScale
 70
     0
300
3/32" = 1'-0"
140
0.09375
141
12.0
290
     0
  0
SCALE
  5
5E
102
{ACAD_REACTORS
330
47
102
}
330
47
100
AcDbScale
 70
     0
300
1/8" = 1'-0"
140
0.125
141
12.0
290
     0
  0
SCALE
  5
5F
102
{ACAD_REACTORS
330
47
102
}
330
47
100
AcDbScale
 70
     0
300
3/16" = 1'-0"
140
0.1875
141
12.0
290
     0
  0
SCALE
  5
60
102
{ACAD_REACTORS
330
47
102
}
330
47
100
AcDbScale
 70
     0
300
1/4" = 1'-0"
140
0.25
141
12.0
290
     0
  0
SCALE
  5
61
102
{ACAD_REACTORS
330
47
102
}
330
47
100
AcDbScale
 70
     0
300
3/8" = 1'-0"
140
0.375
141
12.0
290
     0
  0
SCALE
  5
62
102
{ACAD_REACTORS
330
47
102
}
330
47
100
AcDbScale
 70
     0
300
1/2" = 1'-0"
140
0.5
141
12.0
290
     0
  0
SCALE
  5
63
102
{ACAD_REACTORS
330
47
102
}
330
47
100
AcDbScale
 70
     0
300
3/4" = 1'-0"
140
0.75
141
12.0
290
     0
  0
SCALE
  5
64
102
{ACAD_REACTORS
330
47
102
}
330
47
100
AcDbScale
 70
     0
300
1" = 1'-0"
140
1.0
141
12.0
290
     0
  0
SCALE
  5
65
102
{ACAD_REACTORS
330
47
102
}
330
47
100
AcDbScale
 70
     0
300
1-1/2" = 1'-0"
140
1.5
141
12.0
290
     0
  0
SCALE
  5
66
102
{ACAD_REACTORS
330
47
102
}
330
47
100
AcDbScale
 70
     0
300
3" = 1'-0"
140
3.0
141
12.0
290
     0
  0
SCALE
  5
67
102
{ACAD_REACTORS
330
47
102
}
330
47
100
AcDbScale
 70
     0
300
6" = 1'-0"
140
6.0
141
12.0
290
     0
  0
SCALE
  5
68
102
{ACAD_REACTORS
330
47
102
}
330
47
100
AcDbScale
 70
     0
300
1'-0" = 1'-0"
140
12.0
141
12.0
290
     0
  0
ENDSEC
  0
EOF
